TabNabber Tabs   Musician Supported
  Клавишная табулатура
Espa˝ol English
Franšais Русский
Исполнитель: # A B C D E F G H I J K L M N O P Q R S T U V W X Y Z
guitar

GuitarКлавишная табулатура



(0 from 0 votes)
9,062 Views, Last Update 11 years ago
by: ARGy
guest

Tabber
[Tabber]
Drop D Tuning

Intro/Verse
e|----------------------------------------------------------------|
b|----------------------------------------------------------------|
g|----------------------------------------------------------------|
d|-10-10--/3-3-3-/1-1-1-/5-5-5------------------------------------|
a|-8--8---/3-3-3-/1-1-1-/5-5-5------------------------------------|
d|-8--8---/3-3-3-/1-1-1-/5-5-5------------------------------------|

Pre-Chorus
e|----------------------------------------------------------------|
b|----------------------------------------------------------------|
g|----------------------------------------------------------------|
d|-1--11-1-1~--5--55-5-5~--8--88-8-8~--3--33-3-3~-----------------|
a|-1--11-1-1~--5--55-5-5~--8--88-8-8~--3--33-3-3~-----------------|
d|-1--11-1-1~--5--55-5-5~--8--88-8-8~--3--33-3-3~-----------------|

Chorus
e|----------------------------------------------------------------|
b|----------------------------------------------------------------|
g|----------------------------------------------------------------|
d|-8--88-8-8--3--33-3-3--5--55-5-5--1--11-1-1---------------------|
a|-8--88-8-8--3--33-3-3--5--55-5-5--1--11-1-1---------------------|
d|-8--88-8-8--3--33-3-3--5--55-5-5--1--11-1-1---------------------|

Bridge
e|----------------------------------------------------------------|
b|----------------------------------------------------------------|
g|----------------------------------------------------------------|
d|--10--1010-10-10--1--11-1-1--8--88-8-8--3--33-3-3---------------|
a|--10--1010-10-10--1--11-1-1--8--88-8-8--3--33-3-3---------------|
d|--10--1010-10-10--1--11-1-1--8--88-8-8--3--33-3-3---------------|

Order:
Intro
Verse
Pre-Chorus
Chorus
Verse
Pre-Chorus
Chorus
Bridge
Chorus


Login to Edit
Edit
YouTube
Video
View Sheet Music
Sheet
Music
Print
Speed:
Play Intro (login for the full song)
Play
Intro
Sustain:
Download midi (intro) ...

 Rate:
5 star
4 star
3 star
2 star
1 star
 

Comments (0)
 

No comments yet...

Comment on this tab   -   Unhelpful comments are exterminated.
  Your Guest Name:
      [Member Login]
  Comments:
 

Don't understand the tab?
See "How to Read Guitar Tabs".
Supported tags:
<i>italics</i>
<b>bold</b>
<u>underline</u>
<tab>tab lines</tab>
  Are you a spam robot?

If not, solve the equation:




[674 TabNabbers online]
©2020 TabNabber.com - Musician Supported Contact us Advertising Merchandise Privacy Policy Terms of Use facebook Twitter