TabNabber Tabs   Musician Supported
  Клавишная табулатура
Espa˝ol English
Franšais Русский
Исполнитель: # A B C D E F G H I J K L M N O P Q R S T U V W X Y Z
guitar

GuitarКлавишная табулатура



(0 from 0 votes)
6,623 Views, Last Update 12 years ago
by: bit
guest

New Tabber
[New Recruit]
e|---------------------------------------------------------------------|
B|-3-------------------------------------------------------------------|
G|-------2--------------2--------------2-------------2-----------------|
D|-----0----0---------0-----0--------0---0---------0-----4-0-----------|
A|-2----------2--0-------------0---2-------2----0----------------------|
E|-3------------2----------------3------------2------------------------|

e|-----------------------------------------------------------------------|
B|-3---------------------------------------------0-----------------------|
G|-------2--------------2--------------2---------------------------------|
D|-----0----0---------0-----0--------0-----2--0--------------------------|
A|-2----------2--0-------------0---2-------------------------------------|
E|-3------------2----------------3---------------------------------------|


e|------------------------------------------------------------------------|
B|-3-----------------------------0-------------3--------------------------|
G|-------2--------------2--------------2-------------2--------------------|
D|-----0----0---------0-----0--------0---0---------0-----4-0--------------|
A|-2----------2--0-------------0-2--------2----0--------------------------|
E|-3------------2----------------3------------2---------------------------|

e|----------------------------------------------------------------------|
B|--3------------------------------------0-----0------------------------|
G|-------2--------------2--------------2-----2--------------------------|
D|-----0----0---------0-----0--------0-----0-----0----------------------|
A|--2----------2--0-----------0---2----------------2--------------------|
E|-3------------2---------------3---------------------------------------|

verse

e|----2------------0-------------------------------------2-----------|
B|---0---0-------0---0-------3-------------3-----------0---0---------|
G|---------2-----------2---2----2--------2----2--------------2-------|
D|-----------0--------------------0-------------0--------------0-----|
A|-2-----------0---------2----------2--2----------2-2-------------0--|
E|-3-----------2---------3-------------0------------3-------------2--|

e|-----5--------------5--------------5---------------5---------------|
B|---0----0---------0----0---------0----0----------0----0------------|
G|----------2--------------2--------------2---------------2----------|
D|------------0--------------0--------------0--------------0---------|
A|--------------0--------------0---------------0---------------------|
E|--------------2--------------2---------------2---------------------|

e|------2--------------5--0------------------------------------------|
B|----0----0---------0--------3--------------------------------------|
G|-----------2--------------------0----------------------------------|
D|-------------0------------------0----------------------------------|
A|-2--------------0-----------2---2----------------------------------|
E|-3--------------2-----------3---3----------------------------------|

chorus

e|---------5--------------5-------------5---------------------|
B|-7-7-7-7---7--5-5-5-5-5---5---3-3-3-3---3-3-8-8-7-5-3-------|
G|------------------------------------------------------------|
D|------------------------------------------------------------|
A|------------------------------------------------------------|
E|------------------------------------------------------------|

e|---------5------------5-----------5-------------------------|
B|-7-7-7-7---7--5-5-5-5----5-3-3-3-3---3-3-3-3-5-7-5-8--------|
G|------------------------------------------------------------|
D|------------------------------------------------------------|
A|------------------------------------------------------------|
E|------------------------------------------------------------|

e|---------5-----------5----------5----------------------|
B|-7-7-7-7---7-5-5-5-5---5-3-3-3-3--3-3-5-7-3-5----------|
G|-------------------------------------------------------|
D|-------------------------------------------------------|
A|-------------------------------------------------------|
E|-------------------------------------------------------|

e|---------5-----------5---------5---------5----------------------|
B|-7-7-7-7---7-5-5-5-5---3-3-3-3---3-3-3-3---3-3-3-3-5-7-5-8-5-8--|
G|----------------------------------------------------------------|
D|----------------------------------------------------------------|
A|----------------------------------------------------------------|
E|----------------------------------------------------------------|

e|---------5------------------------------|
B|-7-7-7-7---7-5-5-5-5---5-3--------------|
G|-----------------------------0-4-2------|
D|----------------------------------------|
A|----------------------------------------|
E|----------------------------------------|




Login to Edit
Edit
YouTube
Video
View Sheet Music
Sheet
Music
Print
Speed:
Play Intro (login for the full song)
Play
Intro
Sustain:
Download midi (intro) ...

 Rate:
5 star
4 star
3 star
2 star
1 star
 

Comments (0)
 

No comments yet...

Comment on this tab   -   Unhelpful comments are exterminated.
  Your Guest Name:
      [Member Login]
  Comments:
 

Don't understand the tab?
See "How to Read Guitar Tabs".
Supported tags:
<i>italics</i>
<b>bold</b>
<u>underline</u>
<tab>tab lines</tab>
  Are you a spam robot?

If not, solve the equation:




[253 TabNabbers online]
©2020 TabNabber.com - Musician Supported Contact us Advertising Merchandise Privacy Policy Terms of Use facebook Twitter