TabNabber Tabs   Musician Supported
  Клавишная табулатура
Espa˝ol English
Franšais Русский
Исполнитель: # A B C D E F G H I J K L M N O P Q R S T U V W X Y Z
guitar

GuitarКлавишная табулатура



(4.1 from 14 votes)
16,619 Views, Last Update 12 years ago
by: pants
guest
[Guest]
e|---------------------------------------|    
B|---------------------------------------|    
G|-------0-------0-------0-------0-------|   
D|-----0--0----4--4----5--5----5--0------|   
A|---3-------5-------7-------7-----------|    
E|---------------------------------------| 
e|---------------------------------------|    
B|---------------------------------------|    
G|-------0-------0-------0-------0-------|   
D|-----0--0----4--4----5--5----5--0------|   
A|---3-------5-------7-------7-----------|    
E|---------------------------------------| 
e|---------------------------------------|    
B|---------------------------------------|    
G|-------0-------0-------0-------0-------|   
D|-----0--0----4--4----5--5----5--0------|   
A|---3-------5-------7-------7-----------|    
E|---------------------------------------| 
e|---------------------------------------|    
B|---------------------------------------|    
G|-------0-------0-------0-------0-------|   
D|-----0--0----4--4----5--5----5--0------|   
A|---3-------5-------7-------7-----------|    
E|---------------------------------------| 
e|---------------------------------------|    
B|---------------------------------------|    
G|-------0-------0-------0-------0-------|   
D|-----0--0----4--4----5--5----5--0------|   
A|---3-------5-------7-------7-----------|    
E|---------------------------------------| 
e|---------------------------------------|    
B|---------------------------------------|    
G|-------0-------0-------0-------0-------|   
D|-----0--0----4--4----5--5----5--0------|   
A|---3-------5-------7-------7-----------|    
E|---------------------------------------| 
e|---------------------------------------|    
B|---------------------------------------|    
G|-------0-------0-------0-------0-------|   
D|-----0--0----4--4----5--5----5--0------|   
A|---3-------5-------7-------7-----------|    
E|---------------------------------------| 
e|---------------------------------------|    
B|---------------------------------------|    
G|-------0-------0-------0-------0-------|   
D|-----0--0----4--4----5--5----5--0------|   
A|---3-------5-------7-------7-----------|    
E|---------------------------------------| 
e|------------------------------------------|
B|------------------------------------------|
G|------0--------0--------0--------0--------|
D|----0---0----0---0----4---4----4---4------|
A|--------------------5--------5------------|
E|--3--------3------------------------------|
e|------------------------------------------|
B|------------------------------------------|
G|------0--------0--------0--------0--------|
D|----5---5----5---5----0---0----0---0------|
A|--7--------7--------3--------3------------|
E|------------------------------------------|
e|------------------------------------------|
B|------------------------------------------|
G|------0--------0--------0--------0--------|
D|----0---0----0---0----4---4----4---4------|
A|--------------------5--------5------------|
E|--3--------3------------------------------|
e|------------------------------------------|
B|------------------------------------------|
G|-----0--------0------0----0----0----0-----|
D|---5---5----5---5---0-0--0-0--0-0--0-0----|
A|-7--------7--------3----3----3----3-------|
E|------------------------------------------|
e|-------------|  
B|-------------|  
G|-------------|   
D|-------------|   
A|--3--5-------|  
E|--------0--0-| 
e|----------------------|
B|----------------------|
G|---0----0----0----0---|  
D|--0-0--4-0--5-5--5-0--|
A|-3----5---------------|
E|-----------0----0-----|
e|-------------|  
B|-------------|  
G|-------------|   
D|-------------|   
A|--3--5-------|  
E|--------0--0-| 
e|----------------------|
B|----------------------|
G|---0----0----0----0---|  
D|--0-0--4-0--5-5--5-0--|
A|-3----5---------------|
E|-----------0----0-----|
e|-------------|  
B|-------------|  
G|-------------|   
D|-------------|   
A|--3--5-------|  
E|--------0--0-| 
e|----------------------|
B|----------------------|
G|---0----0----0----0---|  
D|--0-0--4-0--5-5--5-0--|
A|-3----5---------------|
E|-----------0----0-----|
e|-------------|  
B|-------------|  
G|-------------|   
D|-------------|   
A|--3--5-------|  
E|--------0--0-| 
e|----------------------|
B|----------------------|
G|---0----0----0----0---|  
D|--0-0--4-0--5-5--5-0--|
A|-3----5---------------|
E|-----------0----0-----|
e|-------------|  
B|-------------|  
G|-------------|   
D|-------------|   
A|--3--5-------|  
E|--------0--0-| 
e|----------------------|
B|----------------------|
G|---0----0----0----0---|  
D|--0-0--4-0--5-5--5-0--|
A|-3----5---------------|
E|-----------0----0-----|
e|-------------|  
B|-------------|  
G|-------------|   
D|-------------|   
A|--3--5-------|  
E|--------0--0-| 
e|----------------------|
B|----------------------|
G|---0----0----0----0---|  
D|--0-0--4-0--5-5--5-0--|
A|-3----5---------------|
E|-----------0----0-----|
e|------------------------------------------|
B|------------------------------------------|
G|------0--------0--------0--------0--------|
D|----0---0----0---0----4---4----4---4------|
A|--------------------5--------5------------|
E|--3--------3------------------------------|
e|------------------------------------------|
B|------------------------------------------|
G|------0--------0--------0--------0--------|
D|----5---5----5---5----0---0----0---0------|
A|--7--------7--------3--------3------------|
E|------------------------------------------|
e|------------------------------------------|
B|------------------------------------------|
G|------0--------0--------0--------0--------|
D|----0---0----0---0----4---4----4---4------|
A|--------------------5--------5------------|
E|--3--------3------------------------------|
e|------------------------------------------|
B|------------------------------------------|
G|------0--------0--------0--------0--------|
D|----0---0----0---0----4---4----4---4------|
A|--------------------5--------5------------|
E|--3--------3------------------------------|
e|------------------------------------------|
B|------------------------------------------|
G|------0--------0--------0--------0--------|
D|----5---5----5---5----0---0----0---0------|
A|--7--------7--------3--------3------------|
E|------------------------------------------|
e|------------------------------------------|
B|------------------------------------------|
G|------0--------0--------0--------0--------|
D|----0---0----0---0----4---4----4---4------|
A|--------------------5--------5------------|
E|--3--------3------------------------------|
e|------------------------------------------|
B|------------------------------------------|
G|-----0--------0------0----0----0----0-----|
D|---5---5----5---5---0-0--0-0--0-0--0-0----|
A|-7--------7--------3----3----3----3-------|
E|------------------------------------------|


Login to Edit
Edit
YouTube
Video
View Sheet Music
Sheet
Music
Print
Speed:
Play Intro (login for the full song)
Play
Intro
Sustain:
Download midi (intro) ...

14 Votes
5 star: 71%  (10)
4 star: 7%  (1)
3 star:  (0)
2 star:  (0)
1 star: 21%  (3)
0 star:  (0)
 Rate:
5 star
4 star
3 star
2 star
1 star
 

Comments (4)
 

dfafasdfas
[Guest]
9 years ago
Thank you
i'm from korea.
i want to find this.....

Reply
rachel
[Guest]
10 years ago
this is hard how do you do this

Reply
wu chun
[Guest]
11 years ago
hi im here now in taiwan..
im playing a piano for our concert, its so nice to hear this kind of music with piano!!
thanx..

Reply
sponge
[Guest]
12 years ago
Thank You!!!

Reply

Comment on this tab   -   Unhelpful comments are exterminated.
  Your Guest Name:
      [Member Login]
  Comments:
 

Don't understand the tab?
See "How to Read Guitar Tabs".
Supported tags:
<i>italics</i>
<b>bold</b>
<u>underline</u>
<tab>tab lines</tab>
  Are you a spam robot?

If not, solve the equation:




[583 TabNabbers online]
©2020 TabNabber.com - Musician Supported Contact us Advertising Merchandise Privacy Policy Terms of Use facebook Twitter