TabNabber Tabs   Musician Supported
  Клавишная табулатура
Espa˝ol English
Franšais Русский
Исполнитель: # A B C D E F G H I J K L M N O P Q R S T U V W X Y Z
guitar

GuitarКлавишная табулатура



(0 from 0 votes)
277 Views, Last Update 14 days ago new
by: Anonymous
guest
[Guest]
E|---------------------------6---6v---7b9----|--------------------------|
B|-0/8v-6-3----------------8---8----------8v-|-8-11-11b13-13-13---11b13-|
G|-----------------------7-------------------|--------------------------|
D|----------5b7-5-3v-------------------------|--------------------------|
A|-------------------5-----------------------|--------------------------|
E|-------------------------------------------|--------------------------|
 
E|-------8-9-10-------8-----------------|-10b13-11b13-13-10b12r10-10-8--p8br|
B|-11b13--------11b13---11-8-11b13-8-8v-|-----------------------------------|
G|--------------------------------------|-----------------------------------|
D|--------------------------------------|-----------------------------------|
A|--------------------------------------|-----------------------------------|
E|--------------------------------------|-----------------------------------|
 
E|------8-----------------|
B|-11-8-11b13-11-11b13-8v-|
G|------------------------|
D|------------------------|
A|------------------------|
E|------------------------|
 
E|----------------------------------------------------------------|
B|-15-15-18-18---15-18-18---15-18-18--15-18-18-18b20-18-15--------|
G|---------------------------------------------------------17-15v-|
D|----------------------------------------------------------------|
A|----------------------------------------------------------------|
E|----------------------------------------------------------------|
 
E|-----------------------|---------------------|----------------------------------|
B|-15-15---15-15---15-15-|-15-18-18---15-18-18-|-15-18b20-18-15-------------------|
G|-x-------x-------x-----|-x----------x--------|----------------17b19-17-15v------|
D|-17------17------17----|-17---------17-------|-----------------------------17\0-|
A|-----------------------|---------------------|----------------------------------|
E|-----------------------|---------------------|----------------------------------|
 
E|-------------------15-17-15h17v-|-------------------------------------|
B|----------15-18b20--------------|-------------------------------------|
G|----15-17-----------------------|------------15-17b18b19b18b19--------|
D|-17-----------------------------|------15-17-------------------17-17v-|
A|--------------------------------|-0/17--------------------------------|
E|--------------------------------|-------------------------------------|
 
E|---------------------------------------|
B|---------------------------------------|
G|-------15b17b17r-15--------------------|
D|-15-17--------------17v-17v-17v-17v-\--|
A|---------------------------------------|
E|---------------------------------------|
 
E|-9b11-9b11-9b11v-9b10-9-7---------|-8b10b10-7b9b9-6-|-8b10b10-7b9b9-6-|
B|-9----9----9-----9----9---8v---8v-|-----------------|-----------------|
G|----------------------------------|-----------------|-----------------|
D|----------------------------------|-----------------|-----------------|
A|----------------------------------|-----------------|-----------------|
E|----------------------------------|-----------------|-----------------|
 
E|-8b10b10b10-8-6----|-6v-6-7b9-7b9-8b10-8b10-9b11-9b11v-8-6----|
B|----------------8v-|------7---7---8----8----9----9---------8v-|
G|-------------------|------------------------------------------|
D|-------------------|------------------------------------------|
A|-------------------|------------------------------------------|
E|-------------------|------------------------------------------|
 
E|-------3-------------|-----------------|---------------|-------------------|
B|-----3---6-3---------|-6-3---------5-3-|-----3-5-3-----|-------------------|
G|-5b7---------6-5-3---|-----6-5-3-------|-5-3-3-5-3-6-5-|-3-----------------|
D|-------------------5-|-----------5-----|-----5---------|---5-3---5-3-------|
A|---------------------|-----------------|---------------|-------5-----5-4-3-|
E|---------------------|-----------------|---------------|-------------------|
 
E|---------------------|-----|
B|---x-6-3-------------|-----|
G|---x-----6-5-3-------|-----|
D|---------------5-3-5-|-3-5-|
A|---------------------|-----|
E|-6-3-----------------|-----|


Login to Edit
Edit
YouTube
Video
View Sheet Music
Sheet
Music
Print
Speed:
Play Intro (login for the full song)
Play
Intro
Sustain:
Download midi (intro) ...

 Rate:
5 star
4 star
3 star
2 star
1 star
 

Comments (0)
 

No comments yet...

Comment on this tab   -   Unhelpful comments are exterminated.
  Your Guest Name:
      [Member Login]
  Comments:
 

Don't understand the tab?
See "How to Read Guitar Tabs".
Supported tags:
<i>italics</i>
<b>bold</b>
<u>underline</u>
<tab>tab lines</tab>
  Are you a spam robot?

If not, solve the equation:




[1080 TabNabbers online]
©2021 TabNabber.com - Musician Supported Contact us Advertising Merchandise Privacy Policy Terms of Use facebook Twitter