TabNabber Tabs   Musician Supported
  Клавишная табулатура
Espa˝ol English
Franšais Русский
Исполнитель: # A B C D E F G H I J K L M N O P Q R S T U V W X Y Z
guitar

GuitarКлавишная табулатура



(0 from 0 votes)
210 Views, Last Update 16 days ago new
by: nghthwkk
guest
[Guest]
e|----------------------------------------------------8--10--13 TO 10(X3)----|
B|--------------------------------------------11(X8)-------------------------|
G|-2(X4)--3(X4)--5(X4)--7(X8)--8(X4)--10(X4)---------------------------------|
D|---------------------------------------------------------------------------|
A|---------------------------------------------------------------------------|
E|---------------------------------------------------------------------------|
 
e|-13--15--13--11--10--8 TO 10(X8)--10 TO 11(X6)--13 TO 11(X2)--10 TO 11(X8)-|
B|---------------------------------------------------------------------------|
G|---------------------------------------------------------------------------|
D|---------------------------------------------------------------------------|
A|---------------------------------------------------------------------------|
E|---------------------------------------------------------------------------|
 
e|-11--10--8--6--5--3--1(X8)--13(X8)---------13(X4)------13(X4)--13 TO 18(X2)|
B|---------------------------------------------------------------------------|
G|------------------------------------10(X3)--------10(X3)-------------------|
D|---------------------------------------------------------------------------|
A|---------------------------------------------------------------------------|
E|---------------------------------------------------------------------------|
 
e|-666-----------------------------------------------------------------------|
B|-666--6--8--11--10--6--4--3------------------------------------------------|
G|-777-------------------------3---------------------------------------------|
D|-XXX-----------------------------------------------------------------------|
A|-XXX-----------------------------------------------------------------------|
E|-XXX-----------------------------------------------------------------------|


Login to Edit
Edit
YouTube
Video
View Sheet Music
Sheet
Music
Print
Speed:
Play Intro (login for the full song)
Play
Intro
Sustain:
Download midi (intro) ...

 Rate:
5 star
4 star
3 star
2 star
1 star
 

Comments (0)
 

No comments yet...

Comment on this tab   -   Unhelpful comments are exterminated.
  Your Guest Name:
      [Member Login]
  Comments:
 

Don't understand the tab?
See "How to Read Guitar Tabs".
Supported tags:
<i>italics</i>
<b>bold</b>
<u>underline</u>
<tab>tab lines</tab>
  Are you a spam robot?

If not, solve the equation:




[861 TabNabbers online]
©2021 TabNabber.com - Musician Supported Contact us Advertising Merchandise Privacy Policy Terms of Use facebook Twitter