TabNabber Tabs   Musician Supported
  Клавишная табулатура
Espa˝ol English
Franšais Русский
Исполнитель: # A B C D E F G H I J K L M N O P Q R S T U V W X Y Z
guitar

GuitarКлавишная табулатура



(0 from 0 votes)
2,323 Views, Last Update 1 year ago
by: Anonymous
guest
[Guest]
[Main riff]
e|---------------------------------------------------------------|
B|---------------------------------------------------------------|
G|----------4----------------------4-----------------------------|
D|------4-6------6-4-----------4-6-----6-4-----------------------|
A|-4--7---------------7-4--4-7-------------7-4----2-4------------|
E|----------------------------------------------------4----------|
 
e|---------------------------------------------------------------|
B|---------------------------------------------------------------|
G|----------4----------------------4-----------------------------|
D|------4-6------6-4-----------4-6-----6-4-----------------------|
A|-4--7---------------7-4--4-7-------------7-4----2-4-4/9--------|
E|---------------------------------------------------------------|
 
[Verse]
e|---------------------------------------------------------------|
B|---------------------------------------5-----------------------|
G|--------------------6------------------6----------------9------|
D|--------------------7------------------6----------------9------|
A|--------------------7------------------4----------------7------|
E|--------------------5------------------4----------------7------|
 
Goodbye my past...          Here comes a vague taste
 
e|---------------------------------------------------------------|
B|-------------------------------------------5-------------------|
G|--6-----------------6----------------------6----------------9--|
D|--7-----------------7----------------------6----------------9--|
A|--7-----------------7----------------------4----------------7--|
E|--5-----------------5----------------------4----------------7--|
 
  Of bitter future... bitter future... very strange taste
 
[Chorus]
e|---------------------------------------------------------------|
B|---------------------------------------------------------------|
G|---------------------------------------------------------------|
D|-7-4-----------------7-4---------------9--7-6----9--7-6--------|  x2
A|-----7-4--4-4-7--4-------7-4--4-4-7--4-------------------------|
E|---------------------------------------------------------------|
 
[Main riff]
e|---------------------------------------------------------------|
B|---------------------------------------------------------------|
G|----------4----------------------4-----------------------------|
D|------4-6------6-4-----------4-6-----6-4-----------------------|
A|-4--7---------------7-4--4-7-------------7-4----2-4------------|
E|----------------------------------------------------4----------|
 
e|---------------------------------------------------------------|
B|---------------------------------------------------------------|
G|----------4----------------------4-----------------------------|
D|------4-6------6-4-----------4-6-----6-4-----------------------|
A|-4--7---------------7-4--4-7-------------7-4----2-4-4/9--------|
E|---------------------------------------------------------------|
 
[Verse]
e|---------------------------------------------------------------|
B|---------------------------------------5-----------------------|
G|--------------------6------------------6----------------9------|
D|--------------------7------------------6----------------9------|
A|--------------------7------------------4----------------7------|
E|--------------------5------------------4----------------7------|
 
e|---------------------------------------------------------------|
B|-------------------------------------------5-------------------|
G|--6-----------------6----------------------6----------------9--|
D|--7-----------------7----------------------6----------------9--|
A|--7-----------------7----------------------4----------------7--|
E|--5-----------------5----------------------4----------------7--|
 
[Chorus]
e|------------------------------------------------------------------------|
B|------------------------------------------------------------------------|
G|------------------------------------------------------------------------|
D|-7-4-----------------7-4---------------9-9--7-6-6-6---9-9--7-6-6-6-6----|  x2
A|-----7-4--4-4-7--4-------7-4--4-4-7--4----------------------------------|
E|------------------------------------------------------------------------|
 
[Outro]
e|----------------------|
B|----5---5---7--9--9-9-|
G|--6---6---6----8--8-8-| Repeat till end of song.
D|----------------------|
A|----------------------|
E|----------------------|
 
 
*****************
 
/ Slide up
 
*****************


Login to Edit
Edit
YouTube
Video
View Sheet Music
Sheet
Music
Print
Speed:
Play Intro (login for the full song)
Play
Intro
Sustain:
Download midi (intro) ...

 Rate:
5 star
4 star
3 star
2 star
1 star
 

Comments (1)
 

Anonymous
[Guest]
10 days ago
amazeballz

Reply

Comment on this tab   -   Unhelpful comments are exterminated.
  Your Guest Name:
      [Member Login]
  Comments:
 

Don't understand the tab?
See "How to Read Guitar Tabs".
Supported tags:
<i>italics</i>
<b>bold</b>
<u>underline</u>
<tab>tab lines</tab>
  Are you a spam robot?

If not, solve the equation:




[1894 TabNabbers online]
©2021 TabNabber.com - Musician Supported Contact us Advertising Merchandise Privacy Policy Terms of Use facebook Twitter