TabNabber Tabs   Musician Supported
  Клавишная табулатура
Espa˝ol English
Franšais Русский
Исполнитель: # A B C D E F G H I J K L M N O P Q R S T U V W X Y Z
guitar

GuitarКлавишная табулатура



(0 from 0 votes)
2,071 Views, Last Update 1 year ago
by: Gman
guest
[Guest]
e|---5--5--5--5--5--5--5--|---7--7--7--7--7--7--7--|
B|---6--6--6--6--6--6--6--|---8--8--8--8--8--8--8--|
G|---5--5--5--5--5--5--5--|---7--7--7--7--7--7--7--|
D|0-----------------------|0-----------------------|
A|------------------------|------------------------|
E|------------------------|------------------------|

e|2--------2------------|---------2------------|0-----0-----0-----0-----|
B|3--2--3-------3-------|3--2--3-------3----2--|3-----3-----3-----3-----|
G|2---------------------|4---------------------|---0-----0--------------|
D|0---------------------|4---------------------|------------------------|
A|-------------------4--|2---------------------|------------------------|
E|----------------------|----------------------|0--------------0-----0--|

e|0-----0-----0-----0-----|2--------2------------|---------2------------|
B|2-----3-----5-----2-----|3--2--3-------3-------|3--2--3-------3-------|
G|------------0-----------|2---------------------|4---------------------|
D|2-----4-----------2-----|0---------------------|4---------------------|
A|---0-----0-----0-----0--|-------------------4--|2------------------0--|
E|------------------------|----------------------|----------------------|

e|---7-----0-----5-----------|--------------------0-----|
B|------3-----3-----3--5--3--|--0-----2-----3-----0-----|
G|*--------------------------|--1-----2-----4-----1-----|
D|*--------------------------|--------------------------|
A|---------------------------|--------------------------|
E|---3-----------2-----------|-----0-----0-----0-----0--|

e|--------0-----------0-----|--------2-----4-----2-----|
B|--------2-----------2-----|--------2-----2-----2-----|
G|-----2-----2-----2-----2--|-----2-----2-----2-----2--|
D|--------------------------|--------------------------|
A|--0-----------0-----------|--------------------------|
E|--------------------------|--2-----------------------|

e|--------2-----------2-----|--------------------0-----|--------0------------2--|
B|--------3-----------3-----|--0-----2-----3-----0-----|--------2--7----5-------|
G|-----4-----4-----4-----4--|--1-----2-----4-----1-----|-----2-----6----6-------|
D|--------------------------|--------------------------|-----------5----5-------|
A|--2-----------2-----------|--------------------------|--0---------------------|
E|--------------------------|-----0-----0-----0-----0--|------------------------|

e|--2--------2--------|--2--------2--------|-----------3----------2--|
B|--3--------3--------|--3--------2--------|--------0-------------3--|
G|--2--------2--------|--4--------2--------|-----0-------------2-----|
D|--0--------0--------|--4--------4--------|----------------0--------|
A|--------------------|--2--------4--------|-------------------------|
E|--------------------|-----------2--------|--3----------------------|

e|--3----2----2----|--------0-----0--------|--6--------|
B|--0----3----3----|--------3-----2--------|--6--------|
G|--0----2----4----|-----0-----0--0--------|--6--------|
D|--0----2----4----|--------------2--------|--6--------|
A|--2---------2----|--------------0--------|--6--------|
E|--3--------------|--0--------------------|--6--------|

e|--7-----9------7-----9------||--------2-----0-----2-----|--2----------------|
B|--8-----10-----8-----7------||--------3-----3-----3-----|--3----------------|
G|---------------------------*||-----2-----2-----2-----2--|--4----------------|
D|-----0------0-----0-----0--*||--0-----------------------|--4----------------|
A|----------------------------||--------------------------|--2----------------|
E|----------------------------||--------------------------|-------------------|

e|--2----------------|--------3-----3--------|--2-----3-----5-----5----|
B|--2----------------|--------0-----0--------|--3-----5-----7-----5----|
G|--2----------------|--0--0-----0--0--------|--------------------6----|
D|--4----------------|-----------------------|-----0-----0-----0--4----|
A|--4----------------|-----------------------|-------------------------|
E|--2----------------|--3--------------------|-------------------------|

e|--2----------------|--2----------------|---------------------|
B|--2----------------|--2----------------|--2--------2----0----|
G|--4----------------|--2----------------|--2--------2----2----|
D|--4----------------|--4----------------|--0--------0----0----|
A|--2----------------|--4----------------|--2--------2----2----|
E|-------------------|--2----------------|---------------------|

e|--0--------0--------|--0-----0-----0-----0-----|--2-----2-----2-----2-----|
B|--0--------3--------|--2-----3-----5-----2-----|--3-----3-----3-----3-----|
G|--0--------0--------|--------------0-----------|-----2-----2-----2-----2--|
D|--2--------2--------|--2-----4-----------2-----|--------------------------|
A|--2--------2--------|-----0-----0-----0-----0--|--------------------------|
E|--0--------0--------|--------------------------|--------------------------|

e|--2-----2-----|--2-----2-----0-----2-----|--0-----1-----3-----2-----|
B|--3-----3-----|--------------------------|--------------------------|
G|-----2-----2--|-----2-----2-----2-----2--|-----2-----2-----2-----2--|
D|--------------|--0-----------------0-----|--------0-----2-----0-----|
A|--------------|--------------4-----------|--4-----------------------|
E|--------------|--------------------------|--------------------------|

e|--0--------0--|--------5-----5-----------|--0----0--2--|
B|--------3-----|--2--------2-----2-----2--|--1----------|
G|-----2--------|--------------------2-----|--0----------|
D|--------------|-----2--------------------|-------------|
A|--4-----2-----|--0-----------------------|--0----------|
E|--------------|--------------------------|-------------|

e|--3-----------3-----------|--3-----7------------|--7-----9------7h-9---5-----|
B|-----0-----0--1--2-----2--|--0-----8------------|--8-----10-----8--10--7-----|
G|--------0-----0-----0-----|--0--0--7------------|----------------------------|
D|--------------2-----------|---------------------|-----0------0------------0--|
A|--------------------------|---------------------|----------------------------|
E|--3-----------------------|--3------------------|----------------------------|

e|--7-----0-----5-----0-----|--------------------0-----|
B|-----3-----3-----3-----3--|--0-----2-----3-----0-----|
G|--------------------------|--1-----2-----4-----0-----|
D|--------------------------|--------------------------|
A|--------------------------|--------------------------|
E|--3-----------2-----------|-----0-----0-----0-----0--|

e|--0-----0--0--0-----0-----|--2--------2--------|-----------3----------2--|
B|--2-----3-----5-----2-----|--3--------2--------|--------0-------------3--|
G|--------------0-----------|--4--------2--------|-----0-------------2-----|
D|--2-----4-----------2-----|--4--------4--------|----------------0--------|
A|-----0-----------0-----0--|--2--------4--------|-------------------------|
E|--------------------------|-----------2--------|--3----------------------|

e|--3----2----2----|--------0-----0--------|--------2-----2-----10----|
B|--0----3----3----|--------3-----2--------|--------3-----3-----7-----|
G|--0----2----4----|-----0-----0--0--------|-----2-----2-----2--7-----|
D|--0----0----4----|--------------2--------|--0-----------------0-----|
A|--2---------2----|--------------0--------|--------------------------|
E|--3--------------|--0--------------------|--------------------------|

e|--2--------2--------|--0--------3--------|--2--------2--------||
B|--3--------2--------|--3--------3--------|--3--------3--------||
G|--4--------2--------|--0-----------------|--2--------2--------||
D|--4--------4--------|--2--------5--------|--0--------0--------||
A|--2--------4--------|--2--------5--------|--------------------||
E|-----------2--------|--0--------3--------|--------------------||


Login to Edit
Edit
YouTube
Video
View Sheet Music
Sheet
Music
Print
Speed:
Play Intro (login for the full song)
Play
Intro
Sustain:
Download midi (intro) ...

 Rate:
5 star
4 star
3 star
2 star
1 star
 

Comments (0)
 

No comments yet...

Comment on this tab   -   Unhelpful comments are exterminated.
  Your Guest Name:
      [Member Login]
  Comments:
 

Don't understand the tab?
See "How to Read Guitar Tabs".
Supported tags:
<i>italics</i>
<b>bold</b>
<u>underline</u>
<tab>tab lines</tab>
  Are you a spam robot?

If not, solve the equation:




[514 TabNabbers online]
©2020 TabNabber.com - Musician Supported Contact us Advertising Merchandise Privacy Policy Terms of Use facebook Twitter