TabNabber Tabs   Musician Supported
  Клавишная табулатура
Espa˝ol English
Franšais Русский
Исполнитель: # A B C D E F G H I J K L M N O P Q R S T U V W X Y Z
guitar

GuitarКлавишная табулатура



(0 from 0 votes)
2,079 Views, Last Update 2 years ago
by: Anonymous
guest
[Guest]
eb|----------------------------------------------------------0---------------|
Bb|---------------------------------------------------------0----------------|
Gb|---12~-------------12~------------12~~~12~~12~~-noise---0-----------------|
Db|--x-----14p12-----x----14p12-----x---------------------0------------------|
Ab|-x---------------x--------------x---------------------0-------------------|
Eb|x---------------x--------------x---------------------0--------------------|

eb|-----------------------------------------------------12-------12------12-12|
Bb|----------------15~~~~~~--------------------------12---15b17-----15b17-----|
Gb|14b16r14b16~-------16r14~---12-14p12----------14b16------------------------|
Db|------------------------------------14-12----------------------------------|
Ab|---------------------------------------------------------------------------|
Eb|---------------------------------------------------------------------------|

eb|-----12-12-----12-12-------------------------------------------------------|
Bb|15b17-----15b17-------15p14p12----------15p14p12----------15p14p12---------|
Gb|-------------------------------14p13p12----------14p13p12----------14p13p12|
Db|---------------------------------------------------------------------------|
Ab|---------------------------------------------------------------------------|
Eb|---------------------------------------------------------------------------|

eb|---------------------------------------------------------------------------|
Bb|------------12-------------------------------------------------------------|
Gb|---12h13h14----14-12b13----------14-12-14-12b13----------------------------|
Db|14----------------------14p12----14-12-14-12b13--14-12-14-x----------------|
Ab|------------------------------------------------------------14--12h13------|
Eb|----------------------------------------------------------------------15-12|

eb|------------------------------------------------12------12------12------12-|
Bb|----------------------------------------15b17------15b17---15b17---15b17---|
Gb|14-12-14-12b13-------------------------x-----------------------------------|
Db|14-12-14-12b13--14-12-14--------------x------------------------------------|
Ab|-------------------------14-12h13----x-------------------------------------|
Eb|------------------------------------x--------------------------------------|

eb|-----12------12------12------12------12------12------12--15p12----12-------|
Bb|15b17---15b17---15b17---15b17---15b17---15b17---15b17----------15----15p12-|
Gb|---------------------------------------------------------------------------|
Db|---------------------------------------------------------------------------|
Ab|---------------------------------------------------------------------------|
Eb|---------------------------------------------------------------------------|

eb|-------------12------------------------------------------------------------|
Bb|-------15b17-----14p12-14p12b13--------------------------------------------|
Gb|-14b16-----------14p12-14p12b13---------14-12----12b13---------------------|
Db|--------------------------------14-12---------14-------14-12-14p12---------|
Ab|-------------------------------------------------------------------14-12h13|
Eb|---------------------------------------------------------------------------|

eb|-----------------------------------------------------------------------16tr|
Bb|--------15p14-15p14--15p14--15p14--15p14--15p14--15p14--15p14--15p14/--17tr|
Gb|--------12----12-12--12-12--12-12--12-12--12-12--12-12--12-12--12-12/--16tr|
Db|--------12----12-12--12-12--12-12--12-12--12-12--12-12--12-12--12-12-------|
Ab|---------------------------------------------------------------------------|
Eb|-15-12---------------------------------------------------------------------|


Login to Edit
Edit
YouTube
Video
View Sheet Music
Sheet
Music
Print
Speed:
Play Intro (login for the full song)
Play
Intro
Sustain:
Download midi (intro) ...

 Rate:
5 star
4 star
3 star
2 star
1 star
 

Comments (0)
 

No comments yet...

Comment on this tab   -   Unhelpful comments are exterminated.
  Your Guest Name:
      [Member Login]
  Comments:
 

Don't understand the tab?
See "How to Read Guitar Tabs".
Supported tags:
<i>italics</i>
<b>bold</b>
<u>underline</u>
<tab>tab lines</tab>
  Are you a spam robot?

If not, solve the equation:




[782 TabNabbers online]
©2020 TabNabber.com - Musician Supported Contact us Advertising Merchandise Privacy Policy Terms of Use facebook Twitter