TabNabber Tabs   Musician Supported
  Клавишная табулатура
Espa˝ol English
Franšais Русский
Исполнитель: # A B C D E F G H I J K L M N O P Q R S T U V W X Y Z
guitar

GuitarКлавишная табулатура



(0 from 0 votes)
6,131 Views, Last Update 4 years ago
by: Anonymous
guest
[Guest]
First part
e------------------------------------------------|
B------------------------------------------------|
G------------------------------------------------|
D-----4---3------3---2--------0------------------|
A-0-2--2----0-2---2---0-2-0----------------------|
E------------------------------------------------|


second part
e-------7--6------6-5-----3------------------------|
B--3-5---5---3-5--5--3-5---------------------------|
G--------------------------------------------------|
D--------------------------------------------------|
A--------------------------------------------------|
E--------------------------------------------------|


third part
e---------------------------------------------------|
B---------------------------------------------------|
G---------------------------------------------------|
D---------------------------------------------------|
A-----4--3------3--2--------0-----------------------|
E-0-2--2---0-2---2---0-2-0--------------------------|

fourth part (usually comes in after third part to reintrduce first part)
e---------------------------------------------------|
B---------------------------------------------------|
G---------------------------------------------------|
D------2-----------2-------------2------------------|
A--0-2--2-4---0-2--2-4-----0-2--2-------------------|
E---------------------------------------------------|
e|------------------------------------------------------------------------------------------|
b|------------------------------------------------------------------------------------------|
g|------------------------------------------------------------------------------------------|
d|------------------------------------------------------------------------------------------|
a|------------------------------------------------------------------------------------------|
e|------------------------------------------------------------------------------------------|


Login to Edit
Edit
YouTube
Video
View Sheet Music
Sheet
Music
Print
Speed:
Play Intro (login for the full song)
Play
Intro
Sustain:
Download midi (intro) ...

 Rate:
5 star
4 star
3 star
2 star
1 star
 

Comments (0)
 

No comments yet...

Comment on this tab   -   Unhelpful comments are exterminated.
  Your Guest Name:
      [Member Login]
  Comments:
 

Don't understand the tab?
See "How to Read Guitar Tabs".
Supported tags:
<i>italics</i>
<b>bold</b>
<u>underline</u>
<tab>tab lines</tab>
  Are you a spam robot?

If not, solve the equation:




[751 TabNabbers online]
©2020 TabNabber.com - Musician Supported Contact us Advertising Merchandise Privacy Policy Terms of Use facebook Twitter