TabNabber Tabs   Musician Supported
  Клавишная табулатура
Espa˝ol English
Franšais Русский
Исполнитель: # A B C D E F G H I J K L M N O P Q R S T U V W X Y Z
Piano

PianoКлавишная табулатура



(0 from 0 votes)
3,782 Views, Last Update 5 years ago
by: Anonymous
guest
[Guest]
e-----------------------------------------------------------------------

H-----------------------------------------------------------------------
G----7-----7~~-(8)(7)p5h7.----5/7-7-7-7-8p7-----------------------------
D-5-----5-----------------------------------10p8-10/12.--10h12p10~~\----
A-----------------------------------------------------------------------
E-----------------------------------------------------------------------


e-----------------------------------------------------------------------

H-----------------------------------------------------------------------
G----7-----7~~-(8)(7)p5h7.----5/7-7-7-7-8p7-----------------------------
D-5-----5-----------------------------------10p8-10/12.--10h12p10~~\----
A-----------------------------------------------------------------------
E-----------------------------------------------------------------------



e-----------------------------------------------------------------------

H-----------------------------------------------------------------------
G-/3--3--3--3/5\3p2--------/2--2--2--2h3--3p2----------2--2h3--/5\3-----
D-------------------5.-----------------------5-3--3h5-------------------
A-----------------------------------------------------------------------
E-----------------------------------------------------------------------



e-----------------------------------------------------------------------

H-----------------------------------------------------------------------
G-p2h3~---p2h3~---p2h3~---p2h3.--------3--3--3--3p2/3--h5p3p2-----------
D--------------------------------------------------------------5.-------
A-----------------------------------------------------------------------
E-----------------------------------------------------------------------



e-----------------------------------------------------------------------

H-----------------------------------------------------------------------
G-2--2--2h3h5.--5p3p2------------------------------<12>-----------------
D--------------------5--3--5/7.--5h7p5~--/---------<12>-----------------
A-----------------------------------------------------------------------
E-----------------------------------------------------------------------



Part 2

e-----10------10h11p10h11p10---10.---8/10--10--10--10--10h11p10---------

H---------------------------13---------------------------------13p11----
G-12------12------------------------------------------------------------
D-----------------------------------------------------------------------
A-----------------------------------------------------------------------
E-----------------------------------------------------------------------



e---------------------------------------10------10h11p10h11p10---10.----

H-13/15.---13p11h13~-------\----------------------------------13--------
G--------------------------------10/12------12--------------------------
D-----------------------------------------------------------------------
A-----------------------------------------------------------------------
E-----------------------------------------------------------------------



e-8/10--10--10--10h11/13--13p11\10--/11--/13.--13p11p10/11~-------------

H-----------------------------------------------------------------------
G-----------------------------------------------------------------------
D-----------------------------------------------------------------------
A-----------------------------------------------------------------------
E-----------------------------------------------------------------------



e-10h11--10h11--10h11--p10----------------------------------------------

H--------------------------13~--------11--11--11--11--h13p11p10---------
G----------------------------------------------------------------12.----
D-----------------------------------------------------------------------
A-----------------------------------------------------------------------
E-----------------------------------------------------------------------



e-----------------------------------------------------------------------

H-8/10--10--10--10h11--11p10---------------10--10h11--/13\11------------
G----------------------------12p10--10h12-------------------------------
D-----------------------------------------------------------------------
A-----------------------------------------------------------------------
E-----------------------------------------------------------------------



e-----------------------------------------------------------------------

H-p10h11~---p10h11~---p10h11~---p10h11----------------------------------
G-----------------------------------------------------------------------
D-----------------------------------------------------------------------
A-----------------------------------------------------------------------
E-----------------------------------------------------------------------



e-----------------------------------------------------------------------

H-11--11--11--10/11--h13p11p10------------------------------------------
G-------------------------------12--------------------------------------
D-----------------------------------------------------------------------
A-----------------------------------------------------------------------
E-----------------------------------------------------------------------



e-----------------------------------------------------------------------

H-8/10--10--10h11h13.-13p11p10------------------------------------------
G-------------------------------12h10--/10h12--12~------------12\-------
D-----------------------------------------------------------------------
A-----------------------------------------------------------------------
E-----------------------------------------------------------------------



Part 3

e----------------10h11--8.---8h10-----8.---8h10-----8--h9p8h9p8h9p8-----

H-/8--8--10--11-------------------11------------11----------------------
G-----------------------------------------------------------------------
D-----------------------------------------------------------------------
A-----------------------------------------------------------------------
E-----------------------------------------------------------------------



e-8-8-8--6--5--5h6p5----------------------------------------------------

H-------------------8-6~---h7p6h7p6h7p6h7p6h7p6.------------------------
G-----------------------------------------------------------------------
D-----------------------------------------------------------------------
A-----------------------------------------------------------------------
E-----------------------------------------------------------------------



e-----------------6h8-6.---6h8-5--6.---6h8-5--6--h7p6h7p6h7p6-----------

H-6-6-6--6h8--10--------------------------------------------------------
G-----------------------------------------------------------------------
D-----------------------------------------------------------------------
A-----------------------------------------------------------------------
E-----------------------------------------------------------------------



e-6-6-6--6h8--10--8-h10p8p6\5---h6p5h6p5h6p5\3--------------------------

H-----------------------------------------------------------------------
G----------------------------------------------5------------------------
D-----------------------------------------------------------------------
A-----------------------------------------------------------------------
E-----------------------------------------------------------------------



e----------------10h11-8.---8h10-----8--/15--13h15-11h13-10h11----------

H-/8--8--10--11------------------11----------------------------13~------
G-----------------------------------------------------------------------
D-----------------------------------------------------------------------
A-----------------------------------------------------------------------
E-----------------------------------------------------------------------



e-----------------------------------------------------------------------

H-13-13-13--11--10--10h11p10--------------------------------------------
G----------------------------12-10~~---h11p10h11p10h11p10h11p10~~\------
D-----------------------------------------------------------------------
A-----------------------------------------------------------------------
E-----------------------------------------------------------------------



e-----------------------------------------------------------------------

H-----------------------11h13-11.---11h13-10--11.-----------------------
G-/10-10-10--10h12--14--------------------------------------------------
D-----------------------------------------------------------------------
A-----------------------------------------------------------------------
E-----------------------------------------------------------------------



e-----------------------------------------------------------------------

H-11h13p10h11p10------h15p10h15p10h15p10.-------------------------------
G------------------------------------------------/10h12-12~~~~~~--------
D-----------------------------------------------------------------------
A-----------------------------------------------------------------------
E-----------------------------------------------------------------------



Login to Edit
Edit
YouTube
Video
View Sheet Music
Sheet
Music
Voice / Instrument / Track Legend
Instr.
Map
Print
Speed:
Play Intro (login for the full song)
Play
Intro
Sustain:
Download midi (intro) ...

 Rate:
5 star
4 star
3 star
2 star
1 star
 

Comments (0)
 

No comments yet...

Comment on this tab   -   Unhelpful comments are exterminated.
  Your Guest Name:
      [Member Login]
  Comments:
 

Don't understand the tab?
See "How to Read Piano Tabs".
Supported tags:
<i>italics</i>
<b>bold</b>
<u>underline</u>
<tab>tab lines</tab>
  Are you a spam robot?

If not, solve the equation:




[1547 TabNabbers online]
©2020 TabNabber.com - Musician Supported Contact us Advertising Merchandise Privacy Policy Terms of Use facebook Twitter