TabNabber Tabs   Musician Supported
  Клавишная табулатура
Espa˝ol English
Franšais Русский
Исполнитель: # A B C D E F G H I J K L M N O P Q R S T U V W X Y Z
guitar

GuitarКлавишная табулатура



(0 from 0 votes)
5,235 Views, Last Update 6 years ago
by: Ed
guest
[Guest]
e||-------0---------------0-----------------0---------------0---------
B||-7---7-----7-------7-------7-------7---7-----7-------7-------7-----
G||---7-----7---7---7---7---7---7-------7-----7---7---7---7---7---7---
D||---------------7---------------7-----------------9---------------9-
A||-------------------------------------------------------------------
E||-------------------------------------------------------------------

e||-------0---------------0-----------------0---------------0---------
B||-8---8-----8-------8-------8-------5---5-----5-------5-------5-----
G||---7-----7---7---7---7---7---7-------6-----6---6---6---6---6---6---
D||---------------9---------------9-----------------7---------------7-
A||-------------------------------------------------------------------
E||-------------------------------------------------------------------



e|9-------9-----------------------------------------------------------------------------------|
b|-10-9----------------------------------------------------------------------------------------|
g|------9------------------------------------------------------------------------------------|
d|------------------------------------------------------------------------------------------|
a|------------------------------------------------------------------------------------------|
e|------------------------------------------------------------------------------------------|





Login to Edit
Edit
YouTube
Video
View Sheet Music
Sheet
Music
Print
Speed:
Play Intro (login for the full song)
Play
Intro
Sustain:
Download midi (intro) ...

 Rate:
5 star
4 star
3 star
2 star
1 star
 

Comments (0)
 

No comments yet...

Comment on this tab   -   Unhelpful comments are exterminated.
  Your Guest Name:
      [Member Login]
  Comments:
 

Don't understand the tab?
See "How to Read Guitar Tabs".
Supported tags:
<i>italics</i>
<b>bold</b>
<u>underline</u>
<tab>tab lines</tab>
  Are you a spam robot?

If not, solve the equation:




[126 TabNabbers online]
©2020 TabNabber.com - Musician Supported Contact us Advertising Merchandise Privacy Policy Terms of Use facebook Twitter