TabNabber Tabs   Musician Supported
  Клавишная табулатура
Espa˝ol English
Franšais Русский
Исполнитель: # A B C D E F G H I J K L M N O P Q R S T U V W X Y Z
guitar

GuitarКлавишная табулатура



(2 from 1 votes)
7,563 Views, Last Update 6 years ago
by: mgr
guest
[Guest]
     W                   W                   W                   W                   W                   W                
E||-------------------|-------------------|-------------------|-------------------|-------------------|-------------------|
B||-------------------|-------------------|-------------------|-------------------|-------------------|-------------------|
G||-------------------|-------------------|-------------------|-------------------|-------------------|-------------------|
D||--0----------------|--L----------------|--0----------------|--L----------------|--0----------------|--0----------------|
A||--0----------------|--L----------------|--0----------------|--L----------------|--0----------------|--0----------------|
D||--0----------------|--L----------------|--0----------------|--L----------------|--0----------------|--0----------------|


  Q    Q    Q    Q       E.  E.  H        E     E.  E.  Q    Q    E     E.  E.  H        E     E.  E.  E  E  E  E  E  
e----------------------|----------------------|-----------------------|----------------------|-------------------------|
b----------------------|----------------------|-----------------------|----------------------|-------------------------|
g----------------------|----------------------|-----------------------|----------------------|-------------------------|
d--0----0----0----0----|--0---1---0--------0--|--0---1---0----0----0--|--0---1---0--------0--|--0---1---0-----0--------|
a--0----0----0----0----|--0---1---0--------0--|--0---1---0----0----0--|--0---1---0--------0--|--0---1---0--4--0--3--0--|
d--0----0----0----0----|--0---1---0--------0--|--0---1---0----0----0--|--0---1---0--------0--|--0---1---0--4--0--3--0--|


  E.  E.  H        E     E.  E.  Q    Q    E     E.  E.  H        E     E.  E.  E  E  E  E  E     E.  E.  H        E  
e----------------------|-----------------------|----------------------|-------------------------|----------------------|
b----------------------|-----------------------|----------------------|-------------------------|----------------------|
g----------------------|-----------------------|----------------------|-------------------------|----------------------|
d--0---1---0--------0--|--0---1---0----0----0--|--0---1---0--------0--|--0---1---0-----0--------|--0---1---0--------0--|
a--0---1---0--------0--|--0---1---0----0----0--|--0---1---0--------0--|--0---1---0--4--0--3--0--|--0---1---0--------0--|
e--0---1---0--------0--|--0---1---0----0----0--|--0---1---0--------0--|--0---1---0--4--0--3--0--|--0---1---0--------0--|


  E.  E.  Q    Q    E     E.  E.  H        E     E.  E.  E  E  E  E  E     S S S S E  S S S S E  S S S S 
e-----------------------|----------------------|-------------------------|--------------------------------|
b-----------------------|----------------------|-------------------------|--------------------------------|
g-----------------------|----------------------|-------------------------|--------------------------------|
d--0---1---0----0----0--|--0---1---0--------0--|--0---1---0-----0--------|--0----------0----------0-------|
a--0---1---0----0----0--|--0---1---0--------0--|--0---1---0--4--0--3--0--|--0----------0----------0-------|
d--0---1---0----0----0--|--0---1---0--------0--|--0---1---0--4--0--3--0--|--0-0-0-0----0-0-0-0----0-0-0-0-|


  S S S S E  S S S S S S S S S S    E.  E.  Q.     Q       E.  E.  Q.     Q       E.  E.  Q.     Q    
e---------------------------------|----------------------|----------------------|----------------------|
b---------------------------------|----------------------|----------------------|----------------------|
g---------------------------------|----------------------|----------------------|----------------------|
d--0----------0-------------------|--0---3---1------L----|--0---3---1------L----|--0---3---1------L----|
a--0----------0-------------------|--0---3---1------L----|--0---3---1------L----|--0---3---1------L----|
d--0-0-0-0----0---0-0-0---0-0-0---|--0---3---1------L----|--0---3---1------L----|--0---3---1------L----|


  E.  E.  Q.     Q       E.  E.  Q.     Q       E.  E.  Q.     Q       E.  E.  Q.     Q       S E  S E  S E  S E  E  E  
----------------------|----------------------|----------------------|----------------------|----------------------------|
----------------------|----------------------|----------------------|----------------------|----------------------------|
----------------------|----------------------|----------------------|----------------------|----7----7----7----7--7--7--|
--0---3---1------L----|--0---3---1------L----|--0---3---1------L----|--0---3---1------L----|--0-7--0-7--0-7--0-7--7--7--|
--0---3---1------L----|--0---3---1------L----|--0---3---1------L----|--0---3---1------L----|--0-5--0-5--0-5--0-5--5--5--|
--0---3---1------L----|--0---3---1------L----|--0---3---1------L----|--0---3---1------L----|--0----0----0----0----------|


  S E  S E  S E  S E  E  E     S E  S E  S E  S E  S S E     W                   W                   Q.     Q.     E.  S 
----------------------------|-----------------------------|-------------------|-------------------|----------------------|
----------------------------|-----------------------------|-------------------|-------------------|----------------------|
----------------------------|-----------------------------|-------------------|-------------------|----------------------|
----------------------------|-----------------------------|--0----------------|--0----------------|--0------0------0-----|
--0-3--0-3--0-3--0-3--3--3--|--1-4--1-4--1-4--1-4--1-3-1--|--0----------------|--0----------------|--0------0------0-----|
--0-3--0-3--0-3--0-3--3--3--|--1-4--1-4--1-4--1-4--1-3-1--|--0----------------|--0----------------|--0------0------0-----|


  E  Q.     Q    E  E     Q.     Q.     E.  S    E  Q.     Q    E  E     Q.     Q.     E.  S    E  Q.     Q    E  E  
-----------------------|----------------------|-----------------------|----------------------|-----------------------|
-----------------------|----------------------|-----------------------|----------------------|-----------------------|
-----------------------|----------------------|-----------------------|----------------------|-----------------------|
-----0------1----0--1--|--0------0------0-----|-----0------3----0--1--|--0------0------0-----|-----0------1----0--1--|
-----0------1----0--1--|--0------0------0-----|-----0------3----0--1--|--0------0------0-----|-----0------1----0--1--|
-----0------1----0--1--|--0------0------0-----|-----0------3----0--1--|--0------0------0-----|-----0------1----0--1--|


  Q.     Q.     E.  S    E  Q.     Q    E  E     W                   W                   W                
----------------------|-----------------------|-------------------|-------------------|-------------------|
----------------------|-----------------------|-------------------|-------------------|-------------------|
----------------------|-----------------------|--3----------------|--5----------------|--2----------------|
--0------0------0-----|-----0------3----0--1--|--3----------------|--5----------------|--2----------------|
--0------0------0-----|-----0------3----0--1--|--1----------------|--3----------------|--0----------------|
--0------0------0-----|-----0------3----0--1--|-------------------|-------------------|-------------------|


  W                   Q.     Q.     E.  S    E  Q.     E   E    E   E     Q.     Q.     E.  S    E  Q.     E   E    E    E  
-------------------|----------------------|----------------------------|----------------------|-----------------------------|
-------------------|----------------------|----------------------------|----------------------|-----------------------------|
--L----------------|----------------------|----------------------------|----------------------|-----------------------------|
--L----------------|--0------1------0-----|-----3------7s--8s--11s--8--|--0------1------0-----|-----3------7s--8s--15s--13--|
--L----------------|--0------1------0-----|-----3----------------------|--0------1------0-----|-----3-----------------------|
-------------------|--0------1------0-----|-----3------7s--8s--11s--8--|--0------1------0-----|-----3------7s--8s--15s--13--|


  Q.     Q.     E.  S    E  Q.     E   E    E   E     Q.     Q.     E.  S    E  Q.     E  E  E  E     Q.     Q.     E.  S 
----------------------|----------------------------|----------------------|------------------------|----------------------|
----------------------|----------------------------|----------------------|------------------------|----------------------|
----------------------|----------------------------|----------------------|------------------------|----------------------|
--0------1------0-----|-----3------7s--8s--11s--8--|--0------1------0-----|-----3------7-----------|--0------0------0-----|
--0------1------0-----|-----3----------------------|--0------1------0-----|-----3------------------|--0------0------0-----|
--0------1------0-----|-----3------7s--8s--11s--8--|--0------1------0-----|-----3------7-----------|--0------0------0-----|


  Q.     Q.     Q       Q.     Q.     Q       Q.     Q.     Q       E  Q    E  Q    Q       Q.     Q.     Q    
---------------------|---------------------|---------------------|-----------------------|---------------------|
---------------------|---------------------|---------------------|-----------------------|---------------------|
---------------------|--3------3------3----|---------------------|-----------------------|---------------------|
--0------0------0----|--3------3------3----|--3------3------3----|-----5----5--5----3----|--0------0------0----|
--0------0------0----|--1------1------1----|--3------3------3----|-----5----5--5----3----|--0------0------0----|
--0------0------0----|---------------------|--3------3------3----|-----5----5--5----3----|--0------0------0----|


  Q.     Q.     Q       Q.     Q.     Q       E  Q    E  Q    Q       Q.     Q.     Q       Q.     Q.     Q    
---------------------|---------------------|-----------------------|---------------------|---------------------|
---------------------|---------------------|-----------------------|---------------------|---------------------|
--3------3------3----|---------------------|-----------------------|---------------------|--3------3------3----|
--3------3------3----|--3------3------3----|-----5----5--5----5----|--0------0------0----|--3------3------3----|
--1------1------1----|--3------3------3----|-----5----5--5----5----|--0------0------0----|--1------1------1----|
---------------------|--3------3------3----|-----5----5--5----5----|--0------0------0----|---------------------|


  Q.     Q.     Q       E  Q    E  Q    Q       Q.     Q.     Q       Q.     Q.     Q       Q.     Q.     Q    
---------------------|-----------------------|---------------------|---------------------|---------------------|
---------------------|-----------------------|---------------------|---------------------|---------------------|
---------------------|-----------------------|---------------------|--3------3------3----|---------------------|
--3------3------3----|-----5----5--5----3----|--0------0------0----|--3------3------3----|--3------3------3----|
--3------3------3----|-----5----5--5----3----|--0------0------0----|--1------1------1----|--3------3------3----|
--3------3------3----|-----5----5--5----3----|--0------0------0----|---------------------|--3------3------3----|


  E  Q    E  Q    Q       E.  E.  E.  E.  E  E     E.  E.  Q     Q.        Q.     Q.     E.  S    E  Q.     Q    E  E  
-----------------------|------------------------|-----------------------|----------------------|-----------------------|
-----------------------|------------------------|-----------------------|----------------------|-----------------------|
-----------------------|------------------------|-----------------------|----------------------|-----------------------|
-----5----5--5----5----|------------------------|-----------------------|--0------0------0-----|-----0------1----0--1--|
-----5----5--5----5----|--0---1---0---1---0--3--|--0---1---6~----L------|--0------0------0-----|-----0------1----0--1--|
-----5----5--5----5----|--0---1---0---1---0--3--|--0---1----------------|--0------0------0-----|-----0------1----0--1--|


  Q.     Q.     E.  S    E  Q.     Q    E  E     Q.     Q.     E.  S    E  Q.     Q    E  E     Q.     Q.     E.  S 
----------------------|-----------------------|----------------------|-----------------------|----------------------|
----------------------|-----------------------|----------------------|-----------------------|----------------------|
----------------------|-----------------------|----------------------|-----------------------|----------------------|
--0------0------0-----|-----0------3----0--1--|--0------0------0-----|-----0------1----0--1--|--0------0------0-----|
--0------0------0-----|-----0------3----0--1--|--0------0------0-----|-----0------1----0--1--|--0------0------0-----|
--0------0------0-----|-----0------3----0--1--|--0------0------0-----|-----0------1----0--1--|--0------0------0-----|


  E  Q.     Q    E  E     W                   W                   W                   W                
-----------------------|-------------------|-------------------|-------------------|-------------------|
-----------------------|-------------------|-------------------|-------------------|-------------------|
-----------------------|--3----------------|--5----------------|--2----------------|--L----------------|
-----0------3----0--1--|--3----------------|--5----------------|--2----------------|--L----------------|
-----0------3----0--1--|--1----------------|--3----------------|--0----------------|--L----------------|
-----0------3----0--1--|-------------------|-------------------|-------------------|-------------------|


  Q.     Q.     E.  S    E  Q.     E   E    E   E     Q.     Q.     E.  S    E  Q.     E   E    E    E  
----------------------|----------------------------|----------------------|-----------------------------|
----------------------|----------------------------|----------------------|-----------------------------|
----------------------|----------------------------|----------------------|-----------------------------|
--0------1------0-----|-----3------7s--8s--11s--8--|--0------1------0-----|-----3------7s--8s--15s--13--|
--0------1------0-----|-----3----------------------|--0------1------0-----|-----3-----------------------|
--0------1------0-----|-----3------7s--8s--11s--8--|--0------1------0-----|-----3------7s--8s--15s--13--|


  Q.     Q.     E.  S    E  Q.     E   E    E   E     Q.     Q.     E.  S    E  Q.     E   E    E    E     W                
----------------------|----------------------------|----------------------|-----------------------------|-------------------|
----------------------|----------------------------|----------------------|-----------------------------|-------------------|
----------------------|----------------------------|----------------------|-----------------------------|-------------------|
--0------1------0-----|-----3------7s--8s--11s--8--|--0------1------0-----|-----3------7s--8s--15s--13--|--0----------------|
--0------1------0-----|-----3----------------------|--0------1------0-----|-----3-----------------------|--0----------------|
--0------1------0-----|-----3------7s--8s--11s--8--|--0------1------0-----|-----3------7s--8s--15s--13--|--0----------------|


  W                   W                   W                 
-------------------|-------------------|-------------------||
-------------------|-------------------|-------------------||
-------------------|-------------------|-------------------||
--L----------------|--L----------------|--L----------------||
--L----------------|--L----------------|--L----------------||
--L----------------|--L----------------|--L----------------||


Login to Edit
Edit
YouTube
Video
View Sheet Music
Sheet
Music
Print
Speed:
Play Intro (login for the full song)
Play
Intro
Sustain:
Download midi (intro) ...

1 Votes
5 star:  (0)
4 star:  (0)
3 star:  (0)
2 star: 100%  (1)
1 star:  (0)
0 star:  (0)
 Rate:
5 star
4 star
3 star
2 star
1 star
 

Comments (0)
 

No comments yet...

Comment on this tab   -   Unhelpful comments are exterminated.
  Your Guest Name:
      [Member Login]
  Comments:
 

Don't understand the tab?
See "How to Read Guitar Tabs".
Supported tags:
<i>italics</i>
<b>bold</b>
<u>underline</u>
<tab>tab lines</tab>
  Are you a spam robot?

If not, solve the equation:




[587 TabNabbers online]
©2020 TabNabber.com - Musician Supported Contact us Advertising Merchandise Privacy Policy Terms of Use facebook Twitter