TabNabber Tabs   Musician Supported
  Клавишная табулатура
Espa˝ol English
Franšais Русский
Исполнитель: # A B C D E F G H I J K L M N O P Q R S T U V W X Y Z
guitar

GuitarКлавишная табулатура



(0 from 0 votes)
6,529 Views, Last Update 6 years ago
by: Reverso
guest
[Guest]
e||-----x-----
B||--3--x-----
G||--0--x-----
D||--3--x-----
A||-----x-----
E||-----x--3--

e||-----------------------------------------------------------------
B||---------3--------------3-----------3-------3-------3-------3----
G||--0---0--3---0---0---0--3---0---0---0---0---0---0---0---0---0----
D||---3h0-----0------3h0-----0-------2-------2-------3-------3------
A||-----------------------------------------------------------------
E||---------------3--------------3-------3-------3-------3-------3--


e||-------------------------------------------------------------------
B||------3-------3-------3-------3-------3-------3-------3-------3----
G||--0---0---0---0---0---0---0---0---0---0---0---0---0---0---0---0----
D||----0-------0-------1-------1-------2-------2-------3-------3------
A||-------------------------------------------------------------------
E||--------3-------3-------3-------3-------3-------3-------3-------3--

e||-----------------------------------------------------------------
B||---------3--------------3-----------3-------3-------3-------3----
G||--0---0--3---0---0---0--3---0---0---0---0---0---0---0---0---0----
D||---3h0-----0------3h0-----0-------2-------2-------3-------3------
A||-----------------------------------------------------------------
E||---------------3--------------3-------3-------3-------3-------3--


e||---------------------------------------------------------------
B||------3-------3-------3-------3---2-1-----1-------1-------1----
G||--0---0---0---0---0---0---0---0-----0-0---0---0---0---0---0----
D||----3-------3-------3-------3-----------0-------0-------0------
A||---------------------------------------------------------------
E||--------3-------3-------3-------3-2-1-------1-------1-------1--




Login to Edit
Edit
YouTube
Video
View Sheet Music
Sheet
Music
Print
Speed:
Play Intro (login for the full song)
Play
Intro
Sustain:
Download midi (intro) ...

 Rate:
5 star
4 star
3 star
2 star
1 star
 

Comments (0)
 

No comments yet...

Comment on this tab   -   Unhelpful comments are exterminated.
  Your Guest Name:
      [Member Login]
  Comments:
 

Don't understand the tab?
See "How to Read Guitar Tabs".
Supported tags:
<i>italics</i>
<b>bold</b>
<u>underline</u>
<tab>tab lines</tab>
  Are you a spam robot?

If not, solve the equation:




[46 TabNabbers online]
©2020 TabNabber.com - Musician Supported Contact us Advertising Merchandise Privacy Policy Terms of Use facebook Twitter