TabNabber Tabs   Musician Supported
  Клавишная табулатура
Espa˝ol English
Franšais Русский
Исполнитель: # A B C D E F G H I J K L M N O P Q R S T U V W X Y Z
guitar

GuitarКлавишная табулатура



(0 from 0 votes)
7,911 Views, Last Update 7 years ago
by: fdfd
guest
[Guest]
e|-----------|---------------------------|-----------|-------------------|
b|-----------|---------------------------|-----------|-------------------|
g|--9-9-9-9--|--11-11-11-11-11-11-11-11--|--9-9-9-9--|--4-4-4-4-4-4-4/6--|
d|--9-9-9-8--|--11-11-11-11-11-11-11-11--|--8-8-8-9--|--3-3-3-3-4-4-4/6--|
a|-----------|--------------12-12-12-11--|-----------|-------------------|
E|-----------|---------------------------|-----------|-------------------|
      u                   d                   u               d

Pre-Chorus (only before the 1st Chorus)
End first verse with
E|--------------|-5-5-5-5-5-5-|-5-5-5-5-5-5-|-5-5-5-5-5-5-|-5-5-5-5-5-5--|
b|--------------|-------------|-------------|-7-7-7-7-7-7-|-7-7-7-7-7-7--|
g|--4-4-4-4-4-4-|-------------|-------------|-7-7-7-7-7-7-|-7-7-7-7-7-7--|
d|--3-3-3-3-4-4-|-------------|-------------|-------------|-6-6-6-6-6-6--|
a|--------------|-------------|-------------|-------------|-5-5-5-5-5-5--|
e|--------------|-------------|-------------|-------------|--------------|

Chorus

F# C#m E C#m F# E D E F#

e|----------------|-------------|-------------|-------------|
b|--9--9--9--x-9--|--4-4-4-x-4--|--7-7-7-x-7--|--4-4-4-x-4--|
g|--11-11-11-x-11-|--6-6-6-x-6--|--9-9-9-x-9--|--6-6-6-x-6--|
d|--11-11-11-x-11-|--6-6-6-x-6--|--9-9-9-x-9--|--6-6-6-x-6--|
a|--11-11-11-x-11-|--5-5-5-x-5--|--9-9-9-x-9--|--5-5-5-x-5--|
E|----------------|-------------|-------------|-------------|
    
e|-----------------|-------------|--------------|----------------------|
b|--9--9--9--x-9---|--7-7-7-x-7--|--5-5-x-7-7-x-|-7/9--9--7-9--7-7-7s--|
g|--11-11-11-x-11--|--9-9-9-x-9--|--7-7-x-9-9-x-|-9/11-11-9-11-9-9-9s--|
d|--11-11-11-x-11--|--9-9-9-x-9--|--7-7-x-9-9-x-|-9/11-11-9-11-9-9-9s--|
a|--11-11-11-x-11--|--9-9-9-x-9--|--------------|----------------------|
E|-----------------|-------------|--------------|----------------------|
                                                                     

2nd Verse
   
e|-----------|---------------------------|-----------|-------------------|
b|-----------|---------------------------|-----------|-------------------|
g|--9-9-9-9--|--11-11-11-11-11-11-11-11--|--9-9-9-9--|--4-4-4-4-4-4-4/6--|
d|--9-9-9-8--|--11-11-11-11-11-11-11-11--|--8-8-8-9--|--3-3-3-3-4-4-4/6--|
a|-----------|--------------12-12-12-11--|-----------|-------------------|
E|-----------|---------------------------|-----------|-------------------|
      u                   d                   u               d

Chorus x 2

e|----------------|-------------|-------------|-------------|
b|--9--9--9--x-9--|--4-4-4-x-4--|--7-7-7-x-7--|--4-4-4-x-4--|
g|--11-11-11-x-11-|--6-6-6-x-6--|--9-9-9-x-9--|--6-6-6-x-6--|
d|--11-11-11-x-11-|--6-6-6-x-6--|--9-9-9-x-9--|--6-6-6-x-6--|
a|--11-11-11-x-11-|--5-5-5-x-5--|--9-9-9-x-9--|--5-5-5-x-5--|
E|----------------|-------------|-------------|-------------|
    
e|-----------------|-------------|---------------------------------|
b|--9--9--9--x-9---|--7-7-7-x-7--|--5-5-x-7-7-x-7/9--9--7-9--7-7---|
g|--11-11-11-x-11--|--9-9-9-x-9--|--7-7-x-9-9-x-9/11-11-9-11-9-9---|
d|--11-11-11-x-11--|--9-9-9-x-9--|--7-7-x-9-9-x-9/11-11-9-11-9-9---|
a|--11-11-11-x-11--|--9-9-9-x-9--|---------------------------------|
E|-----------------|-------------|---------------------------------|


Login to Edit
Edit
YouTube
Video
View Sheet Music
Sheet
Music
Print
Speed:
Play Intro (login for the full song)
Play
Intro
Sustain:
Download midi (intro) ...

 Rate:
5 star
4 star
3 star
2 star
1 star
 

Comments (0)
 

No comments yet...

Comment on this tab   -   Unhelpful comments are exterminated.
  Your Guest Name:
      [Member Login]
  Comments:
 

Don't understand the tab?
See "How to Read Guitar Tabs".
Supported tags:
<i>italics</i>
<b>bold</b>
<u>underline</u>
<tab>tab lines</tab>
  Are you a spam robot?

If not, solve the equation:




[257 TabNabbers online]
©2020 TabNabber.com - Musician Supported Contact us Advertising Merchandise Privacy Policy Terms of Use facebook Twitter