TabNabber Tabs   Musician Supported
  Клавишная табулатура
Espa˝ol English
Franšais Русский
Исполнитель: # A B C D E F G H I J K L M N O P Q R S T U V W X Y Z
guitar

GuitarКлавишная табулатура



(0 from 0 votes)
5,819 Views, Last Update 9 years ago
by: Rkissock
guest
[Guest]
e--1---------1--------1-1-----------0---1--0--------------|
B--3---------1--------1-1--6--------1---------------------|
G--2---------3--------3-3--5--------0---------------------|
D--0---------3--------3-3--3--------2---------------------|
A--0---------1--------1-1--3--------3---------------------|
D--------------------------3------------------------------|

e--1-1-----1--1-1-----1-1-----------0---0--0--------------|
B--3-3-----3--1-1-----1-1--6--------1---1----1------------|
G--2-2-----2--3-3-----3-3--5--------0---0------0----------|
D--0-0-----0--3-3-----3-3--3--------2---2--------0--------|
A--0-0-----0--1-1-----1-1--3--------3---3-----------------|
D--------------------------3------------------------------|

e--------1---------------------1------------------1-------|
B----------3------3---------------------6-----------1-----|
G---2--------2----2-------3---------------5---------------|
D-0---0--------0--------3---3----3----------3---------3-3-|
A--------------0------1-----------------------3-----------|
D------------------------------------3----------3---------|

e-1p0--0----------1------------1---------1----1-----------|
B--------1----------3--------------------1----1-----------|
G----------0----------2---2------3------------------------|
D--------------0--------0---0---------3----3------3-------|
A-----------------------------------1-----------1---------|
D---------------------------------------------------------|

e---------------1--------1p0--0---------------------------|
B----6------------1-------------1-------------------------|
G----5----------------------------0-----------------------|
D------3-----3------2-------------------------------------|
A--------3------------3--------------3--------------------|
D-3--------3----------------------------------------------|

e-----1--------------------1------------------------------|
B---------3------------------3-------------6--------------|
G---2---2---2-2----------------------------5--------------|
D----------------0----3--------3----3--------3--3--3------|
A----------------0--1---1---------1----------3--3--3--3---|
D-0-------------------------------------3-----------------|

e-0----1p0----------1---------1---------------------------|
B---1------1--------3---------1---------------------------|
G------------0--------------------------------------------|
D-----------------------0--------3---3----x---------------|
A----------------0----0---1--------1---1--x---------------|
D----------------0------------------------x---------------|

e----1--------1-----------1---1---------------------------|
B------3------------------3---3-----------------6---6-----|
G-----------------2-----------------------------5---5-----|
D---------------0------3--------3-------------------------|
A--------0-0---------1------1-----1--1-0-----3------------|
D-0----------------------------------------3------3-------|

e------------------1p0--0--------------1----------1-------|
B-------------------------1------------3----------3-------|
G---------------------------0------------2----------2-----|
D-3-----------2------------------2---------0---0------0---|
A---3-------3---3--------------3--------------------------|
D-----3--3--------------------------0--------0------------|

e-----1---------1------------------------1p0---0----------|
B-----3------------------6------6----------------1-----3--|
G------------------------5------5------------0-----0---2--|
D---3---3----3------------------------2----------------0--|
A-1-------1----------3-----3------3-3------------------0--|
D------------------3---------3-------------------------0--|


Login to Edit
Edit
YouTube
Video
View Sheet Music
Sheet
Music
Print
Speed:
Play Intro (login for the full song)
Play
Intro
Sustain:
Download midi (intro) ...

 Rate:
5 star
4 star
3 star
2 star
1 star
 

Comments (0)
 

No comments yet...

Comment on this tab   -   Unhelpful comments are exterminated.
  Your Guest Name:
      [Member Login]
  Comments:
 

Don't understand the tab?
See "How to Read Guitar Tabs".
Supported tags:
<i>italics</i>
<b>bold</b>
<u>underline</u>
<tab>tab lines</tab>
  Are you a spam robot?

If not, solve the equation:




[351 TabNabbers online]
©2020 TabNabber.com - Musician Supported Contact us Advertising Merchandise Privacy Policy Terms of Use facebook Twitter