TabNabber Tabs   Musician Supported
  Клавишная табулатура
Espa˝ol English
Franšais Русский
Исполнитель: # A B C D E F G H I J K L M N O P Q R S T U V W X Y Z
bass

Bass GuitarКлавишная табулатура



(5 from 1 votes)
9,312 Views, Last Update 9 years ago
by: DANNYBASSMAN93
guest

Tabber
[Tabber]
ENRIQUE IGLESIAS FT. PITBULL - I LIKE IT BASS TAB

SONGS INTRO
BASS INTRO

ENRIQUE SHOUTS: "One Love One Love"

Go go Dj go go go Dj go go go Dj club is on fire
Ya’ll Know what time it is, we go set it off tonight, just go set the club on fire,
just go
Enrique! Holla at them

G|---------------------|
D|---------------------|
A|-----------1~--------|
E|-4~---2~--------4~---| x3

vERSE

"Girl please excuse me If I'm coming too strong
But tonight is the night We can really let go"
G|-----------------------------------------------------------------|
D|-----------------------------------------------------------------|
A|---------------------------------1-1-1-1-1-1-1-1-----------------|
E|-4-4-4-4-4-4-4-4-2-2-2-2-2-2-2-2-----------------4-4-4-4-4-4-4-4-|

My girlfriend is out of town And I'm all alone
Your boyfriend is on vacation And he doesn't have to know
G|-----------------------------------------------------------------|
D|-----------------------------------------------------------------|
A|---------------------------------1-1-1-1-1-1-1-1-----------------|
E|-4-4-4-4-4-4-4-4-2-2-2-2-2-2-2-2-----------------4-4-4-4-4-4-4-4-|

No I won’t oh oh, oh oh
No one can do the things I'm gonna wanna to do to you
G|-----------------------------------------------------------------|
D|-----------------------------------------------------------------|
A|---------------------------------1-1-1-1-1-1-1-1-----------------|
E|-4-4-4-4-4-4-4-4-2-2-2-2-2-2-2-2-----------------4-4-4-4-4-4-4-4-|

No I won’t oh oh, oh oh
Shout it out, scream it loud Let me hear you go
G|-----------------------------------------------------------------|
D|-----------------------------------------------------------------|
A|---------------------------------1-1-1-1-1-1-1-1-----------------|
E|-4-4-4-4-4-4-4-4-2-2-2-2-2-2-2-2-----------------4-4-4-4-4-4-4-4-|


CHORUS

Baby I like it, the way you move on the floor
Baby I like it, come on and give me some more
G|-----------------------------------------------------------------|
D|-----------------------------------------------------------------|
A|-----------------------------------------------------------------|
E|-4-4-4-4-4-4-4-4-2-2-2-2-2-2-2-2-6-6-6-6-6-6-6-6-4-4-4-4-4-4-4-4-|

Oh yes I like it, screaming like never before
Baby I like it, I, I, I like it.
G|-----------------------------------------------------------------|
D|-----------------------------------------------------------------|
A|-----------------------------------------------------------------|
E|-4-4-4-4-4-4-4-4-2-2-2-2-2-2-2-2-6-6-6-6-6-6-6-6-4-4-4-4-4-4-4-4-|

Party, Karamu, Fiesta, Forever
G|-----------------------------------------------------------------|
D|-----------------------------------------------------------------|
A|-----------------------------------------------------------------|
E|-4-4-4-4-4-4-4-4-2-2-2-2-2-2-2-2-6-6-6-6-6-6-6-6-4-4-4-4-4-4-4-4-|

VERSE II

"Girl please excuse me If I'm misbehaving, oh
I'm trying keep my hands off, but you're begging me for more"
G|-----------------------------------------------------------------|
D|-----------------------------------------------------------------|
A|---------------------------------1-1-1-1-1-1-1-1-----------------|
E|-4-4-4-4-4-4-4-4-2-2-2-2-2-2-2-2-----------------4-4-4-4-4-4-4-4-|


Round round round, give a low low low
Let the time time pass, "cause we're never getting old'
G|-----------------------------------------------------------------|
D|-----------------------------------------------------------------|
A|---------------------------------1-1-1-1-1-1-1-1-----------------|
E|-4-4-4-4-4-4-4-4-2-2-2-2-2-2-2-2-----------------4-4-4-4-4-4-4-4-|


No I won’t oh oh, oh oh
No one can do it better,turn around I'll give you more
G|-----------------------------------------------------------------|
D|-----------------------------------------------------------------|
A|---------------------------------1-1-1-1-1-1-1-1-----------------|
E|-4-4-4-4-4-4-4-4-2-2-2-2-2-2-2-2-----------------4-4-4-4-4-4-4-4-|


No I won’t oh oh, oh oh
Shout it out, scream it loud Let me hear you go
G|-----------------------------------------------------------------|
D|-----------------------------------------------------------------|
A|---------------------------------1-1-1-1-1-1-1-1-----------------|
E|-4-4-4-4-4-4-4-4-2-2-2-2-2-2-2-2-----------------4-4-4-4-4-4-4-4-|


CHORUS

Baby I like it, the way you move on the floor, baby I like it, Come on and give me
some more
Oh yes I like it, screaming like never before
G|-----------------------------------------------------------------|
D|-----------------------------------------------------------------|
A|-----------------------------------------------------------------|
E|-4-4-4-4-4-4-4-4-2-2-2-2-2-2-2-2-6-6-6-6-6-6-6-6-4-4-4-4-4-4-4-4-|

Baby I like it
I, I, I like it.
G|---------------------------------|
D|---------------------------------|
A|---------------------------------|
E|-6-6-6-6-6-6-6-6-4-4-4-4-4-4-4-4-|

Bridge

Pitbull:

Come DJ that’s my DJ, I’m a Miami boy...you know how we play,
I’m playing what you wanna I play..What u give me got me good, Now watch me..It’s
a
G|---------------------------------|
D|---------------------------------|
A|---------------------------------|
E|-4-4-4-4-2-2-2-2-6-6-6-6-4-4-4-4-|
different species, get me in DC ,
Let’s Party on the White house Lawn, Tiger woods’ tired of Jesse James, Here goes
G|---------------------------------|
D|---------------------------------|
A|---------------------------------|
E|-4-4-4-4-2-2-2-2-6-6-6-6-4-4-4-4-|

Pitbull all night long, Pick up Barack and Michelle and let’em that's it’s on,
Pa’Fuera! Pa’la calle, Dale mamita tirame ese baile!, Dale mamita tirame ese
baile!
G|---------------------------------|
D|---------------------------------|
A|---------------------------------|
E|-4-4-4-4-2-2-2-2-6-6-6-6-4-4-4-4-|

I see you watching me, you see me watchin’ you,
I love the way you move I like them dance you do like Don't stop baby,
G|---------------------------------|
D|---------------------------------|
A|---------------------------------|
E|-4-4-4-4-2-2-2-2-6-6-6-6-4-4-4-4-|

Don't stop baby Just keep on shaking along I won't stop baby, won't stop baby Until
you get enough
G|---------------------------------|
D|---------------------------------|
A|---------------------------------|
E|-4-4-4-4-2-2-2-2-6-6-6-6-4-4-4-4-|

PRE-cHORUS

Party, Karamu, Fiesta, Forever
G|-----------------------------------------------------------------|
D|-----------------------------------------------------------------|
A|-----------------------------------------------------------------|
E|-4-4-4-4-4-4-4-4-2-2-2-2-2-2-2-2-6-6-6-6-6-6-6-6-4-4-4-4-4-4-4-4-|

CHORUS

Baby I like it, the way you move on the floor
Baby I like it, come on and give me some more
G|-----------------------------------------------------------------|
D|-----------------------------------------------------------------|
A|-----------------------------------------------------------------|
E|-4-4-4-4-4-4-4-4-2-2-2-2-2-2-2-2-6-6-6-6-6-6-6-6-4-4-4-4-4-4-4-4-|

Oh yes I like it, screaming like never before
Baby I like it, I, I, I like it.
G|-----------------------------------------------------------------|
D|-----------------------------------------------------------------|
A|-----------------------------------------------------------------|
E|-4-4-4-4-4-4-4-4-2-2-2-2-2-2-2-2-6-6-6-6-6-6-6-6-4-4-4-4-4-4-4-4-|

Baby I like it, the way you move on the floor
Baby I like it, come on and give me some more
G|-----------------------------------------------------------------|
D|-----------------------------------------------------------------|
A|-----------------------------------------------------------------|
E|-4-4-4-4-4-4-4-4-2-2-2-2-2-2-2-2-6-6-6-6-6-6-6-6-4-4-4-4-4-4-4-4-|

Oh yes I like it, Screaming like never before
Baby I like it, I, I, I like it.
G|-----------------------------------------------------------------|
D|-----------------------------------------------------------------|
A|-----------------------------------------------------------------|
E|-4-4-4-4-4-4-4-4-2-2-2-2-2-2-2-2-6-6-6-6-6-6-6-6-4-4-4-4-4-4-4-4-|

Party, (oh yes I like it) Karamu, Fiesta, Forever!
Party, (oh yes I like it) Karamu, Fiesta, Forever
G|-----------------------------------------------------------------|
D|-----------------------------------------------------------------|
A|-----------------------------------------------------------------|
E|-4-4-4-4-4-4-4-4-2-2-2-2-2-2-2-2-6-6-6-6-6-6-6-6-4-4-4-4-4-4-4-4-|

REMEMBER THE CHORDS: G#, F#, Bb (OR A#) AND G#!!!!!!!!!!!!!!!
_____________________________________________________________________________________

FOR MORE TABS OR IF YOU HAVE ANY REWUESTS, SUGGESTIONS OR COMMENTS EMAIL ME AT:

danieli.castro8@gmail.com or join BASSMASTA.NET AND ADD ME (DANNYBASSMAN93)

ENJOY!!!


Login to Edit
Edit
YouTube
Video
View Sheet Music
Sheet
Music
Print
Speed:
Play Intro (login for the full song)
Play
Intro
Sustain:
Download midi (intro) ...

1 Votes
5 star: 100%  (1)
4 star:  (0)
3 star:  (0)
2 star:  (0)
1 star:  (0)
0 star:  (0)
 Rate:
5 star
4 star
3 star
2 star
1 star
 

Comments (0)
 

No comments yet...

Comment on this tab   -   Unhelpful comments are exterminated.
  Your Guest Name:
      [Member Login]
  Comments:
 

Don't understand the tab?
See "How to Read Guitar Tabs".
Supported tags:
<i>italics</i>
<b>bold</b>
<u>underline</u>
<tab>tab lines</tab>
  Are you a spam robot?

If not, solve the equation:




[372 TabNabbers online]
©2020 TabNabber.com - Musician Supported Contact us Advertising Merchandise Privacy Policy Terms of Use facebook Twitter