TabNabber Tabs   Musician Supported
  Клавишная табулатура
Espa˝ol English
Franšais Русский
Исполнитель: # A B C D E F G H I J K L M N O P Q R S T U V W X Y Z
guitar

GuitarКлавишная табулатура



(0 from 0 votes)
11,618 Views, Last Update 9 years ago
by: danuu
guest
[Guest]
1|-------------------------------------------------------------------------|--|
2|-------------------------------------------------------------------------|--|
3|-----12-13-10-13-12----12-10------------------12-13-10-13-12----12-------|--|
4|1010----------------13-------13-12-10----1010----------------13-----12-10|--|
5|--------------------------------------13--------------------------13-----|--|
6|-------------------------------------------------------------------------|--|
 both with the duet
 
1|---------------------------------------------------|-|
2|---------------------------------------------------|-|
3|---------------------------------------------------|-|
4|-------444444222222-1-----------444444222222---1---|-|
5|-444444---------------4-2-444444-------------2---4-|-|
6|---------------------------------------------------|-|
                                    2x      Across...
                                          Riff 1
1|-------------------------------------|-|------------------------------------|
2|-------------------------------------|-|------------------------------------|
3|-------------------------------------|-|------------------------------------|
4|-----------------8-------------------|-|-6----------------------------------|
5|-6-666-6-4-444-4-6-6-666-6-4-444-4-6-|-|-4444444444446----------------------|
6|-4-444-4-2-222-2---4-444-4-2-222-2-4-|-|-------------444444444444-----------|


1|--------------------------------------------------------------------------|--|
2|--------------------------------------------------------------------------|--|
3|--------------------------------------------------------------------------|--|
4|-9------------------9-7-----------------6--------------------------6-4----|--|
5|-7777777777779----------10-9-4----------4444444444445------------6-----7--|--|
6|-------------7777-7----------22222222222------------333333333333-4--------|--|
 On  he way...
                  2X                               Back to the Riff 1
1|------------------|-|-------------------------|-|----------------------------|
2|------------------|-|-------------------------|-|----------------------------|
3|-2--4--6--7--4--6-|-|-6---8---9---6---8---9---|-|----------------------------|
4|-2--4--6--7--4--6-|-|-6---8---9---6---8---9-4-|-|----------------------------|
5|-0--2--4--5--2--4-|-|-4---6---7-2-4---6---7-2-|-|----------------------------|
6|------------------|-|-------------------------|-|----------------------------|
  For the...
  (Chorus)
1|-----------------------------------------|--|
2|-----------------------------------------|--|
3|-----------------------------------------|--|
4|-2--------6--7--9--2---2--9--11-6--7--9--|--|
5|-0--2--4--4--5--7--0---0--7--9--4--5--7--|--|
6|----0--2---------------------------------|--|


                                2x
1|-----------------------------|----------------------------|-|
2|-----------------------------|----------------------------|-|
3|-----------6--------------6--|----------------------------|-|
4|-4----7----6----4----7----6--|----------------------------|-|
5|-4----7----4----4----7----4--|-------------------44444444-|-|
6|-2----5---------2----5-------|-22222222-55555555----------|-|

W/the duet    2X
1|---------|-|-16-------16-16----17-16-17-19-17--16-15-16-17-14-------|
2|---------|-|----17-19-------17--------------------------------18-17-|
3|---------|-|--------------------------------------------------------|
4|-6---6---|-|--------------------------------------------------------|
5|-4-4-4-6-|-|--------------------------------------------------------|
6|---2---4-|-|--------------------------------------------------------|


1|-16-------16-16----17-16-17-19-21-19-17-16-17-16----16------------------|
2|----17-19-------17-------------------------------19----19---------------|
3|----------------------------------------------------------17h18h17h18h17|
4|------------------------------------------------------------------------|
5|------------------------------------------------------------------------|
6|------------------------------------------------------------------------|

                                 Back to Riff 1 and Chorus.
1|----------------------------|-|---------------------------|
2|----------------------------|-|---------------------------|
3|----6-----------6-----------|-|---------------------------|
4|-6--4--6-----6--4--5--6---5-|-|---------------------------|
5|-4-----4--6--4-----3--4---3-|-|---------------------------|
6|----------4-----------------|-|---------------------------|



Login to Edit
Edit
YouTube
Video
View Sheet Music
Sheet
Music
Print
Speed:
Play Intro (login for the full song)
Play
Intro
Sustain:
Download midi (intro) ...

 Rate:
5 star
4 star
3 star
2 star
1 star
 

Comments (0)
 

No comments yet...

Comment on this tab   -   Unhelpful comments are exterminated.
  Your Guest Name:
      [Member Login]
  Comments:
 

Don't understand the tab?
See "How to Read Guitar Tabs".
Supported tags:
<i>italics</i>
<b>bold</b>
<u>underline</u>
<tab>tab lines</tab>
  Are you a spam robot?

If not, solve the equation:




[1168 TabNabbers online]
©2020 TabNabber.com - Musician Supported Contact us Advertising Merchandise Privacy Policy Terms of Use facebook Twitter