TabNabber Tabs   Musician Supported
  Клавишная табулатура
Espa˝ol English
Franšais Русский
guitar

GuitarКлавишная табулатура

Featured! Featured! Featured!

(5 from 2 votes)
8,701 Views, Last Update 5 months ago
by: hi
guest
[Guest]
e|----------------------------------------------------------------|
B|----------------------------------------------------------------|
G|--------2---------------4---------------1---------------2-------|
D|----4-------4-------7-------7-------2-------2-------4-------4---|x2
A|--4---4---4-------7---7---7-------2---2---2-------4---4---4-----|
E|2---------------5---------------0---------------2---------------|

e|----------------------------------------------------------------|
B|----------------------------------------------------------------|
G|------4-2---------------4-------------2-1-------------4-2-------|
D|----4-----4---------7-----7---------2-----2---------4-------4---|x2
A|--4---------4-----7---7-----7-----2---------2-----4-------4-----|
E|2---------------5---------------0---------------2---------------|


Login to Edit
Edit
YouTube
Video
View Sheet Music
Sheet
Music
Print
Download Midi
Speed:
Download Midi Intro (login for the full song)
Get
Intro
Sustain:
alt 1     alt 2

2 Votes
5 star: 100%  (2)
4 star:  (0)
3 star:  (0)
2 star:  (0)
1 star:  (0)
0 star:  (0)
 Rate:
5 star
4 star
3 star
2 star
1 star
 

Comments (0)
 

No comments yet...

Comment on this tab   -   Unhelpful comments are exterminated.
  Your Guest Name:
      [Member Login]
  Comments:
 

Don't understand the tab?
See "How to Read Guitar Tabs".
Supported tags:
<i>italics</i>
<b>bold</b>
<u>underline</u>
<tab>tab lines</tab>
  Are you a spam robot?

If not, solve the equation:




[24875 TabNabbers online]


©2022 TabNabber.com - Musician Supported Contact us Advertising Merchandise Privacy Policy Terms of Use facebook Twitter