TabNabber Tabs   Musician Supported
  Клавишная табулатура
Espa˝ol English
Franšais Русский
guitar

GuitarКлавишная табулатура



(0 from 0 votes)
648 Views, Last Update 5 months ago
by: Brett Rumpel
guest
[Guest]
D|----------------|----------------|----------------|----------------|
A|----------------|----------------|----------------|----------------|
F|----2-----2-----|----0-----0-----|----5-----5-----|----3-----3-----|
C|0-3---0-3---0-3-|0-3---0-3---0-3-|0-3---0-3---0-3-|0-3---0-3---0-3-|x2
G|----------------|----------------|----------------|----------------|
D|----------------|----------------|----------------|----------------|

D|----------------|----------------|----------------|----------------|
A|----------------|----------------|----------------|----------------|
F|----2-----2-----|----5-----5-----|----3-----3-----|----3-----3-----|
C|0-3---0-3---0-3-|2-5---2-5---2-5-|0-3---0-3---0-3-|2-5---2-5---2-5-|x2
G|----------------|----------------|----------------|----------------|
D|----------------|----------------|----------------|----------------|

D|----------------|----------------|----------------|----------10----|
A|----------------|----------------|----------------|---------10---|
F|----5-----5-----|----7-----7-----|----7-----7-----|5---7---7-----|
C|0-0-0-0-3-0-0-0-|0-3-0-0-3-0-0-0-|0-3-5-0-3-5-----|5---5--5--------|
G|----------------|----------------|----------------|----------------|
D|----------------|----------------|----------------|----------------|


Login to Edit
Edit
YouTube
Video
View Sheet Music
Sheet
Music
Print
Download Midi
Speed:
Download Midi Intro (login for the full song)
Get
Intro
Sustain:
alt 1     alt 2

 Rate:
5 star
4 star
3 star
2 star
1 star
 

Comments (0)
 

No comments yet...

Comment on this tab
  Your Guest Name:
      [Member Login]
  Comments:
 

Don't understand the tab?
See "How to Read Guitar Tabs".
Supported tags:
<i>italics</i>
<b>bold</b>
<u>underline</u>
<tab>tab lines</tab>
  Are you a spam robot?

If not, solve the equation:




[33989 TabNabbers online]
©2023 TabNabber.com - Musician Supported Contact us Advertising Merchandise Privacy Policy Terms of Use facebook Twitter