TabNabber Tabs   Musician Supported
  Клавишная табулатура
Espa˝ol English
Franšais Русский
guitar

GuitarКлавишная табулатура



(0 from 0 votes)
1,209 Views, Last Update 9 months ago
by: Brett Rumpel
guest
[Guest]
e|------0---------|------0---------|----------------|----------------|
B|----0---0-------|----0---0-------|------0---------|------0---------|
G|--1-------1---1-|--1-------1---1-|----2---2-------|----2---2-------|
D|2-----------2---|2-----------2---|--1-------1---1-|--1-------1---1-|
A|----------------|----------------|2-----------2---|2-----------2---|
E|----------------|----------------|----------------|----------------|

e|------2---------|------2---------|------0---------|----------------|----------------|------0---------|
B|----2---2-------|----2---2-------|----0---0-------|------2---------|------0---------|----0---0-------|
G|--3-------3---3-|--3-------3---3-|--1-------1---1-|----4---4-------|----2---2-------|--1-------1---1-|
D|4-----------4---|4-----------4---|2-----------2---|--3-------3---3-|--1-------1---1-|2-----------2---|x8
A|----------------|----------------|----------------|4-----------4---|2-----------2---|----------------|
E|----------------|----------------|----------------|----------------|----------------|----------------|


Login to Edit
Edit
YouTube
Video
View Sheet Music
Sheet
Music
Print
Download Midi
Speed:
Download Midi Intro (login for the full song)
Get
Intro
Sustain:
alt 1     alt 2

 Rate:
5 star
4 star
3 star
2 star
1 star
 

Comments (1)
 

Rumpelstein


New Tabber
[New Recruit]

9 months ago
Recycled the recycled into...

Reply

Comment on this tab
  Your Guest Name:
      [Member Login]
  Comments:
 

Don't understand the tab?
See "How to Read Guitar Tabs".
Supported tags:
<i>italics</i>
<b>bold</b>
<u>underline</u>
<tab>tab lines</tab>
  Are you a spam robot?

If not, solve the equation:




[30238 TabNabbers online]
©2023 TabNabber.com - Musician Supported Contact us Advertising Merchandise Privacy Policy Terms of Use facebook Twitter